lunes, 6 de mayo de 2013

La Mona Jimenez - Quien se ha tomado todo el vino


A pedido de Martin Robelo:



La Mona Jiménez - Quién se ha tomado todo el vino?

Am:2000   C:0003
Dm:2210   G:0232

Strumming:
en el coro: abajo arriba apago(bajando) arriba  x2
en el verso lo hace x4 en cada acorde.

Intro:

A|----7-----7-----7-5-3-2-0-----5----5-3-5-7-|
E|-3-5---3-5--3-5------------3-5--3-5--------|
C|-------------------------------------------|
G|-------------------------------------------|

A|----7-----7-----7-5-3-2-0-----5----5-3-5-0-|
E|-3-5---3-5--3-5------------3-5--3-5--------|
C|-------------------------------------------|
G|-------------------------------------------|


Verso1:

Am
No se que pasa en esta ciudad
Am
no se que pasa no puedo entender 
Dm
estoy a punto de morir de sed
Am
por que no encuentro algo para tomar

Coro:

C            G            Am
diganmeeee solo quiero saber
C     G                        Am  
quieeeen se ha tomado todo el vinooooo

intro

Am

oye nena me quieres decir 
Am
por que no puedo ya calmar mi sed

Dm
esta ciudad parece un desierto

Am
y si no hay vino no podemos tocar


Coro
Verso1
Coro


.

2 comentarios:

  1. PORFA QUE ALGUIEN ME AYUDE NO SE COMO HACER EL RASGUIDO PARA QUE SUENE BIEN ALGUIEN QUE ME DE ALGUN PATRON DE RASGUIDO PORFAVOR!!!!!

    ResponderEliminar
    Respuestas
    1. Strumming:
      en el coro: abajo arriba apago(bajando) arriba x2
      en el verso lo hace x4 en cada acorde.

      Eliminar

Related Posts Plugin for WordPress, Blogger...