jueves, 29 de mayo de 2014

MGMT - Kids



MGMT - Kids

F#m:2120  A:2100
D:  2220  E:4442

Intro:
A|-------7-9-11-9-7-------|-------7-9-11-9-7------------|
E|---7-9------------9~-7~-|---7-9------------9~-10/9-7~-| 
C|-9----------------------|-9---------------------------| 
G|------------------------|-----------------------------|

A|-------7-9-11-9-7-------|--------------------------------|
E|---7-9------------9~-7~-|---7-9-7----7---------9/10/9-7~-| 
C|-9----------------------|-9--------9---9--6-9------------| 
G|------------------------|--------------------------------|


Verso 1:
F#m                D                  A              E
   You were a child, crawling on your knees toward it
F#m               D     A                       E     
   Making mama so proud, but your voice was too loud
F#m D                 A           E 
     We like to watch you laughing
F#m                         D      A                    E
   You pick the insects off plants, no time to think of consequences

Coro:
F#m                 D                   A             E
   Control yourself, take only what you neeeeed from it
F#m            D             A             E
   A family of treees wanting to be haunted
F#m                 D                   A           E
   Control yourself, take only what you neeeed from it
F#m            D            A             E
   A family of treees wanting to be haunted

Verso 2:
F#m                  D                 A         E
   The water is warm, but it's sending me shivers
F#m              D A                E      
   A baby is born   crying out for attention
F#m                   D                       A            E
   Your memories fade, like looking through a fogged mirror
F#m                           D                         A
   Decisions to decisions are made and not bought but I thought
                     E
This wouldn't hurt a lot, I guess not


coro + solo + coro x3
.

2 comentarios:

  1. hola ! me encanta su pagina, podrian subir me vieron cruzar de calle 13? por favor, me gusta mucho el tema. sigan asi, saludos desde Argentina.

    ResponderEliminar
  2. Excelente, gracias por compartir el video y tab.

    ResponderEliminar

Related Posts Plugin for WordPress, Blogger...