lunes, 1 de octubre de 2012

Andres Calamaro - Tuyo siempre



Andrés Calamaro - Tuyo siempre


Em:0432
Am:2000
D: 2220
G: 0232
B7:2322
F: 2010


Intro:

A|-----------2------------0-----3-----0-----3----0----2--|
E|-0-2-3-2-0----0-2-3-2-0---3-2----2-3--3-2---2-3-3-2----|
C|-------------------------------------------------------|
G|-------------------------------------------------------|

A|-2-2-2-2-3-2-0-------2-2-2-2-3-2-0----------|
E|---------------3-2-----------------3-2-3-0--|
C|--------------------------------------------|
G|--------------------------------------------|

A|-----3-3-3-3-2----------|
E|-0-3-----------0-3-2-0--|
C|------------------------|
G|------------------------|



Em                             Am 
Si alguna vez no me vuelven a ver
         D                       G  
porque a mí como a todos se me olvida
     B7                           Em 
algo va a quedar adentro tuyo siempre
      C          B7        Em 
algo que yo te dejé alguna vez.

Em                         Am
No importa si nos venís conmigo
      D                     G

este viaje es mejor hacerlo solo
      B7                        Em

Yo te voy a recordar todos los días
       C         B7            Em

porque un amor así nunca se olvida.


        Am            D     
Te seguiría por todas partes
       G           C
y volvería a la ciudad

      F              B7            
si me das otra oportunidad


                Em             Am 
de volver a empezar, mejor que antes
          D                     G  
Quiero darte cada uno de mis instantes
       B7                 Em 
nunca más voy a mentir de nuevo
       C            B7         Em 
porque no voy a olvidarte nunca más.


Intro

       Am            D 
Y volvería por todas partes
           G              C 
para encontrarte y preguntarte
      F               B7      
si me das otra oportunidad


Em                                 Am 
para ser mejor y ya empiezo a olvidar
        D                      G  
porque queda mucho tiempo por delante.
     B7                        Em 
Algo va a quedar adentro tuyo siempre
      C          B7        Em 
algo que yo te dejé alguna vez.
      C             B7         Em 
Porque no voy a olvidarte nunca más
      C         B7        Em 
porque yo no te voy a olvidar.


.

4 comentarios:

  1. ¿Cómo es el rasgueo? Graciasssss

    ResponderEliminar
  2. Muchas gracias por la cancion y el blog en general, sigan asi!

    ResponderEliminar
  3. por favor el patron de rasgueo

    ResponderEliminar
  4. punteo rasgueo por favor

    ResponderEliminar

Related Posts Plugin for WordPress, Blogger...